ISO-10303-21;
HEADER;
FILE_DESCRIPTION (( 'STEP AP203' ),
    '1' );
FILE_NAME ('250814 STEP 3-400775-00_5486A.STEP',
    '2025-08-14T07:25:52',
    ( '' ),
    ( '' ),
    'SwSTEP 2.0',
    'SolidWorks 2024',
    '' );
FILE_SCHEMA (( 'CONFIG_CONTROL_DESIGN' ));
ENDSEC;

DATA;
#1 = ORIENTED_EDGE ( 'NONE', *, *, #95, .F. ) ;
#2 = FACE_OUTER_BOUND ( 'NONE', #36, .T. ) ;
#3 = EDGE_LOOP ( 'NONE', ( #267 ) ) ;
#4 = EDGE_CURVE ( 'NONE', #326, #326, #252, .T. ) ;
#5 = CYLINDRICAL_SURFACE ( 'NONE', #299, 3.500000000000000888 ) ;
#6 = EDGE_LOOP ( 'NONE', ( #97 ) ) ;
#7 =( GEOMETRIC_REPRESENTATION_CONTEXT ( 3 ) GLOBAL_UNCERTAINTY_ASSIGNED_CONTEXT ( ( #11 ) ) GLOBAL_UNIT_ASSIGNED_CONTEXT ( ( #336, #150, #48 ) ) REPRESENTATION_CONTEXT ( 'NONE', 'WORKASPACE' ) );
#8 = VERTEX_POINT ( 'NONE', #228 ) ;
#9 = CARTESIAN_POINT ( 'NONE',  ( 0.000000000000000000, -5.869100404431233833E-16, 0.000000000000000000 ) ) ;
#10 = EDGE_CURVE ( 'NONE', #411, #411, #387, .T. ) ;
#11 = UNCERTAINTY_MEASURE_WITH_UNIT (LENGTH_MEASURE( 1.000000000000000082E-05 ), #336, 'distance_accuracy_value', 'NONE');
#12 = PERSON_AND_ORGANIZATION ( #108, #75 ) ;
#13 = EDGE_LOOP ( 'NONE', ( #62 ) ) ;
#14 = CIRCLE ( 'NONE', #237, 72.00000000000000000 ) ;
#15 = CYLINDRICAL_SURFACE ( 'NONE', #26, 10.00000000000000000 ) ;
#16 = CC_DESIGN_DATE_AND_TIME_ASSIGNMENT ( #390, #139, ( #80 ) ) ;
#17 = DIRECTION ( 'NONE',  ( 0.000000000000000000, 0.000000000000000000, -1.000000000000000000 ) ) ;
#18 = PLANE ( 'NONE',  #100 ) ;
#19 = COORDINATED_UNIVERSAL_TIME_OFFSET ( 2, 0, .AHEAD. ) ;
#20 = DIRECTION ( 'NONE',  ( 0.000000000000000000, 0.000000000000000000, -1.000000000000000000 ) ) ;
#21 = PLANE ( 'NONE',  #386 ) ;
#22 = EDGE_CURVE ( 'NONE', #31, #31, #14, .T. ) ;
#23 = DIRECTION ( 'NONE',  ( 0.000000000000000000, -0.000000000000000000, 1.000000000000000000 ) ) ;
#24 = APPROVAL_STATUS ( 'not_yet_approved' ) ;
#25 = DIRECTION ( 'NONE',  ( -0.000000000000000000, -1.000000000000000000, -0.000000000000000000 ) ) ;
#26 = AXIS2_PLACEMENT_3D ( 'NONE', #332, #333, #110 ) ;
#27 = CC_DESIGN_DATE_AND_TIME_ASSIGNMENT ( #76, #148, ( #223 ) ) ;
#28 = CARTESIAN_POINT ( 'NONE',  ( 0.000000000000000000, 17.00000000000000000, 0.000000000000000000 ) ) ;
#29 = DIRECTION ( 'NONE',  ( 0.000000000000000000, 0.000000000000000000, -1.000000000000000000 ) ) ;
#30 = PERSON_AND_ORGANIZATION ( #108, #75 ) ;
#31 = VERTEX_POINT ( 'NONE', #60 ) ;
#32 = EDGE_LOOP ( 'NONE', ( #49 ) ) ;
#33 = CARTESIAN_POINT ( 'NONE',  ( 10.00000000000000000, 29.00000000000000000, 0.000000000000000000 ) ) ;
#34 = EDGE_CURVE ( 'NONE', #388, #388, #359, .T. ) ;
#35 = FACE_OUTER_BOUND ( 'NONE', #226, .T. ) ;
#36 = EDGE_LOOP ( 'NONE', ( #134 ) ) ;
#37 = DIRECTION ( 'NONE',  ( 0.000000000000000000, -0.000000000000000000, 1.000000000000000000 ) ) ;
#38 = EDGE_LOOP ( 'NONE', ( #327 ) ) ;
#39 = AXIS2_PLACEMENT_3D ( 'NONE', #403, #312, #20 ) ;
#40 = PERSON_AND_ORGANIZATION_ROLE ( 'creator' ) ;
#41 = ADVANCED_FACE ( 'NONE', ( #394, #232 ), #15, .T. ) ;
#42 = EDGE_LOOP ( 'NONE', ( #44 ) ) ;
#43 = DATE_AND_TIME ( #262, #167 ) ;
#44 = ORIENTED_EDGE ( 'NONE', *, *, #34, .T. ) ;
#45 = DIRECTION ( 'NONE',  ( -0.000000000000000000, -1.000000000000000000, -0.000000000000000000 ) ) ;
#46 = DIRECTION ( 'NONE',  ( 1.000000000000000000, 3.492075518553343243E-15, 0.000000000000000000 ) ) ;
#47 = CARTESIAN_POINT ( 'NONE',  ( 0.000000000000000000, 0.000000000000000000, 0.000000000000000000 ) ) ;
#48 =( NAMED_UNIT ( * ) SI_UNIT ( $, .STERADIAN. ) SOLID_ANGLE_UNIT ( ) );
#49 = ORIENTED_EDGE ( 'NONE', *, *, #408, .T. ) ;
#50 = FACE_OUTER_BOUND ( 'NONE', #102, .T. ) ;
#51 = ADVANCED_FACE ( 'NONE', ( #360, #270 ), #143, .T. ) ;
#52 = AXIS2_PLACEMENT_3D ( 'NONE', #218, #381, #135 ) ;
#53 = MANIFOLD_SOLID_BREP ( 'DeleteFace1', #292 ) ;
#54 = FACE_BOUND ( 'NONE', #106, .T. ) ;
#55 = CALENDAR_DATE ( 2025, 14, 8 ) ;
#56 = FACE_OUTER_BOUND ( 'NONE', #169, .T. ) ;
#57 = PLANE ( 'NONE',  #39 ) ;
#58 = AXIS2_PLACEMENT_3D ( 'NONE', #193, #287, #132 ) ;
#59 = AXIS2_PLACEMENT_3D ( 'NONE', #373, #399, #358 ) ;
#60 = CARTESIAN_POINT ( 'NONE',  ( 0.000000000000000000, 27.00000000000000355, -72.00000000000000000 ) ) ;
#61 = VERTEX_POINT ( 'NONE', #382 ) ;
#62 = ORIENTED_EDGE ( 'NONE', *, *, #22, .F. ) ;
#63 = CYLINDRICAL_SURFACE ( 'NONE', #58, 77.00000000000000000 ) ;
#64 = ORIENTED_EDGE ( 'NONE', *, *, #10, .T. ) ;
#65 = EDGE_CURVE ( 'NONE', #196, #196, #187, .T. ) ;
#66 = CIRCLE ( 'NONE', #366, 72.00000000000000000 ) ;
#67 = CC_DESIGN_APPROVAL ( #286, ( #280 ) ) ;
#68 = DIRECTION ( 'NONE',  ( 0.000000000000000000, 0.000000000000000000, -1.000000000000000000 ) ) ;
#69 = FACE_OUTER_BOUND ( 'NONE', #395, .T. ) ;
#70 = ORIENTED_EDGE ( 'NONE', *, *, #337, .T. ) ;
#71 = ADVANCED_FACE ( 'NONE', ( #392, #263 ), #18, .T. ) ;
#72 = COORDINATED_UNIVERSAL_TIME_OFFSET ( 2, 0, .AHEAD. ) ;
#73 = EDGE_LOOP ( 'NONE', ( #99 ) ) ;
#74 = AXIS2_PLACEMENT_3D ( 'NONE', #121, #282, #345 ) ;
#75 = ORGANIZATION ( 'UNSPECIFIED', 'UNSPECIFIED', '' ) ;
#76 = DATE_AND_TIME ( #120, #405 ) ;
#77 = CARTESIAN_POINT ( 'NONE',  ( 0.000000000000000000, 12.00000000000000000, 0.000000000000000000 ) ) ;
#78 = DIRECTION ( 'NONE',  ( -0.000000000000000000, -1.000000000000000000, -0.000000000000000000 ) ) ;
#79 = DIRECTION ( 'NONE',  ( 0.000000000000000000, 0.000000000000000000, -1.000000000000000000 ) ) ;
#80 = SECURITY_CLASSIFICATION ( '', '', #207 ) ;
#81 = ORIENTED_EDGE ( 'NONE', *, *, #10, .F. ) ;
#82 = CARTESIAN_POINT ( 'NONE',  ( 0.000000000000000000, 17.00000000000000000, 10.00000000000000000 ) ) ;
#83 = ORIENTED_EDGE ( 'NONE', *, *, #408, .F. ) ;
#84 = DIRECTION ( 'NONE',  ( 0.000000000000000000, 0.000000000000000000, 1.000000000000000000 ) ) ;
#85 = PERSON_AND_ORGANIZATION ( #108, #75 ) ;
#86 = DIRECTION ( 'NONE',  ( 0.000000000000000000, 1.000000000000000000, 0.000000000000000000 ) ) ;
#87 = CIRCLE ( 'NONE', #380, 72.00000000000000000 ) ;
#88 = DIRECTION ( 'NONE',  ( 0.000000000000000000, -1.000000000000000000, -0.000000000000000000 ) ) ;
#89 = EDGE_CURVE ( 'NONE', #8, #8, #199, .T. ) ;
#90 = DIRECTION ( 'NONE',  ( -0.000000000000000000, -1.000000000000000000, -0.000000000000000000 ) ) ;
#91 = PLANE ( 'NONE',  #181 ) ;
#92 = AXIS2_PLACEMENT_3D ( 'NONE', #344, #274, #242 ) ;
#93 = VERTEX_POINT ( 'NONE', #354 ) ;
#94 = ORIENTED_EDGE ( 'NONE', *, *, #176, .F. ) ;
#95 = EDGE_CURVE ( 'NONE', #222, #222, #306, .T. ) ;
#96 = VERTEX_POINT ( 'NONE', #323 ) ;
#97 = ORIENTED_EDGE ( 'NONE', *, *, #89, .F. ) ;
#98 = CARTESIAN_POINT ( 'NONE',  ( 0.000000000000000000, -5.869100404431233833E-16, -3.500000000000000888 ) ) ;
#99 = ORIENTED_EDGE ( 'NONE', *, *, #65, .T. ) ;
#100 = AXIS2_PLACEMENT_3D ( 'NONE', #331, #391, #177 ) ;
#101 = DIRECTION ( 'NONE',  ( 0.000000000000000000, 0.000000000000000000, 1.000000000000000000 ) ) ;
#102 = EDGE_LOOP ( 'NONE', ( #113 ) ) ;
#103 = FACE_OUTER_BOUND ( 'NONE', #318, .T. ) ;
#104 = EDGE_LOOP ( 'NONE', ( #1 ) ) ;
#105 = CARTESIAN_POINT ( 'NONE',  ( 79.56999999999999318, 27.00000000000000355, 0.000000000000000000 ) ) ;
#106 = EDGE_LOOP ( 'NONE', ( #324 ) ) ;
#107 = AXIS2_PLACEMENT_3D ( 'NONE', #258, #197, #101 ) ;
#108 = PERSON ( 'UNSPECIFIED', 'UNSPECIFIED', 'UNSPECIFIED', ('UNSPECIFIED'), ('UNSPECIFIED'), ('UNSPECIFIED') ) ;
#109 = APPROVAL_PERSON_ORGANIZATION ( #179, #261, #238 ) ;
#110 = DIRECTION ( 'NONE',  ( 0.000000000000000000, 0.000000000000000000, -1.000000000000000000 ) ) ;
#111 = EDGE_CURVE ( 'NONE', #389, #389, #142, .T. ) ;
#112 = ORIENTED_EDGE ( 'NONE', *, *, #95, .T. ) ;
#113 = ORIENTED_EDGE ( 'NONE', *, *, #337, .F. ) ;
#114 = VERTEX_POINT ( 'NONE', #370 ) ;
#115 = AXIS2_PLACEMENT_3D ( 'NONE', #47, #363, #46 ) ;
#116 = EDGE_LOOP ( 'NONE', ( #385 ) ) ;
#117 = APPROVAL_STATUS ( 'not_yet_approved' ) ;
#118 = DIRECTION ( 'NONE',  ( 0.000000000000000000, 1.000000000000000000, 0.000000000000000000 ) ) ;
#119 = ADVANCED_BREP_SHAPE_REPRESENTATION ( '250814 STEP 3-400775-00_5486A', ( #178, #53, #59 ), #7 ) ;
#120 = CALENDAR_DATE ( 2025, 14, 8 ) ;
#121 = CARTESIAN_POINT ( 'NONE',  ( 0.000000000000000000, 27.00000000000000355, 0.000000000000000000 ) ) ;
#122 = PERSON_AND_ORGANIZATION_ROLE ( 'classification_officer' ) ;
#123 = FACE_BOUND ( 'NONE', #6, .T. ) ;
#124 = AXIS2_PLACEMENT_3D ( 'NONE', #383, #156, #68 ) ;
#125 = CARTESIAN_POINT ( 'NONE',  ( 0.000000000000000000, 29.00000000000000000, 0.000000000000000000 ) ) ;
#126 = CYLINDRICAL_SURFACE ( 'NONE', #154, 10.00000000000000178 ) ;
#127 = FACE_OUTER_BOUND ( 'NONE', #131, .T. ) ;
#128 = CC_DESIGN_APPROVAL ( #261, ( #223 ) ) ;
#129 = ADVANCED_FACE ( 'NONE', ( #155, #400 ), #250, .F. ) ;
#130 = CARTESIAN_POINT ( 'NONE',  ( 0.000000000000000000, 12.00000000000000000, -10.00000000000000178 ) ) ;
#131 = EDGE_LOOP ( 'NONE', ( #329 ) ) ;
#132 = DIRECTION ( 'NONE',  ( 0.000000000000000000, 0.000000000000000000, 1.000000000000000000 ) ) ;
#133 = CARTESIAN_POINT ( 'NONE',  ( 0.000000000000000000, 0.000000000000000000, 0.000000000000000000 ) ) ;
#134 = ORIENTED_EDGE ( 'NONE', *, *, #300, .T. ) ;
#135 = DIRECTION ( 'NONE',  ( 1.000000000000000000, 3.488196005483082336E-15, 0.000000000000000000 ) ) ;
#136 = EDGE_LOOP ( 'NONE', ( #70 ) ) ;
#137 = APPLICATION_PROTOCOL_DEFINITION ( 'international standard', 'config_control_design', 1994, #371 ) ;
#138 = DIRECTION ( 'NONE',  ( -0.000000000000000000, -1.000000000000000000, -0.000000000000000000 ) ) ;
#139 = DATE_TIME_ROLE ( 'classification_date' ) ;
#140 = DIRECTION ( 'NONE',  ( 0.000000000000000000, 0.000000000000000000, -1.000000000000000000 ) ) ;
#141 = ADVANCED_FACE ( 'NONE', ( #54, #278 ), #57, .T. ) ;
#142 = CIRCLE ( 'NONE', #396, 3.500000000000000888 ) ;
#143 = CYLINDRICAL_SURFACE ( 'NONE', #115, 79.57000000000005002 ) ;
#144 = DIRECTION ( 'NONE',  ( 0.000000000000000000, 0.000000000000000000, 1.000000000000000000 ) ) ;
#145 = CARTESIAN_POINT ( 'NONE',  ( 0.000000000000000000, 1.999999999999999112, 0.000000000000000000 ) ) ;
#146 = AXIS2_PLACEMENT_3D ( 'NONE', #188, #118, #84 ) ;
#147 = DIRECTION ( 'NONE',  ( 0.000000000000000000, 1.000000000000000000, 0.000000000000000000 ) ) ;
#148 = DATE_TIME_ROLE ( 'creation_date' ) ;
#149 = FACE_OUTER_BOUND ( 'NONE', #163, .T. ) ;
#150 =( NAMED_UNIT ( * ) PLANE_ANGLE_UNIT ( ) SI_UNIT ( $, .RADIAN. ) );
#151 = CARTESIAN_POINT ( 'NONE',  ( 0.000000000000000000, -5.121023337185271396E-17, 0.000000000000000000 ) ) ;
#152 = APPROVAL ( #24, 'UNSPECIFIED' ) ;
#153 = CARTESIAN_POINT ( 'NONE',  ( 0.000000000000000000, 0.000000000000000000, 0.000000000000000000 ) ) ;
#154 = AXIS2_PLACEMENT_3D ( 'NONE', #372, #379, #212 ) ;
#155 = FACE_OUTER_BOUND ( 'NONE', #298, .T. ) ;
#156 = DIRECTION ( 'NONE',  ( 0.000000000000000000, 1.000000000000000000, 0.000000000000000000 ) ) ;
#157 = DIRECTION ( 'NONE',  ( 0.000000000000000000, 0.000000000000000000, -1.000000000000000000 ) ) ;
#158 = CLOSED_SHELL ( 'NONE', ( #384, #189, #71, #51 ) ) ;
#159 = LOCAL_TIME ( 10, 25, 52.00000000000000000, #254 ) ;
#160 = FACE_BOUND ( 'NONE', #229, .T. ) ;
#161 = EDGE_LOOP ( 'NONE', ( #112 ) ) ;
#162 = CARTESIAN_POINT ( 'NONE',  ( 0.000000000000000000, 12.00000000000000000, 0.000000000000000000 ) ) ;
#163 = EDGE_LOOP ( 'NONE', ( #171 ) ) ;
#164 = CARTESIAN_POINT ( 'NONE',  ( 0.000000000000000000, 1.999999999999999556, -77.00000000000000000 ) ) ;
#165 = EDGE_LOOP ( 'NONE', ( #201 ) ) ;
#166 = AXIS2_PLACEMENT_3D ( 'NONE', #208, #338, #79 ) ;
#167 = LOCAL_TIME ( 10, 25, 52.00000000000000000, #72 ) ;
#168 = COORDINATED_UNIVERSAL_TIME_OFFSET ( 2, 0, .AHEAD. ) ;
#169 = EDGE_LOOP ( 'NONE', ( #81 ) ) ;
#170 = VERTEX_POINT ( 'NONE', #183 ) ;
#171 = ORIENTED_EDGE ( 'NONE', *, *, #300, .F. ) ;
#172 = EDGE_CURVE ( 'NONE', #93, #93, #205, .T. ) ;
#173 = ORIENTED_EDGE ( 'NONE', *, *, #311, .T. ) ;
#174 = CIRCLE ( 'NONE', #146, 10.00000000000000000 ) ;
#175 = DIRECTION ( 'NONE',  ( 0.000000000000000000, 0.000000000000000000, -1.000000000000000000 ) ) ;
#176 = EDGE_CURVE ( 'NONE', #409, #409, #404, .T. ) ;
#177 = DIRECTION ( 'NONE',  ( 0.000000000000000000, 0.000000000000000000, -1.000000000000000000 ) ) ;
#178 = MANIFOLD_SOLID_BREP ( 'Split1[1]', #158 ) ;
#179 = PERSON_AND_ORGANIZATION ( #108, #75 ) ;
#180 = FACE_BOUND ( 'NONE', #219, .T. ) ;
#181 = AXIS2_PLACEMENT_3D ( 'NONE', #310, #147, #23 ) ;
#182 = FACE_OUTER_BOUND ( 'NONE', #116, .T. ) ;
#183 = CARTESIAN_POINT ( 'NONE',  ( 0.000000000000000000, 1.999999999999999556, -77.00000000000000000 ) ) ;
#184 = DIRECTION ( 'NONE',  ( 0.000000000000000000, -0.000000000000000000, 1.000000000000000000 ) ) ;
#185 = ADVANCED_FACE ( 'NONE', ( #149, #407 ), #126, .T. ) ;
#186 = DIRECTION ( 'NONE',  ( -0.000000000000000000, -1.000000000000000000, -0.000000000000000000 ) ) ;
#187 = CIRCLE ( 'NONE', #320, 3.500000000000000888 ) ;
#188 = CARTESIAN_POINT ( 'NONE',  ( 0.000000000000000000, 17.00000000000000000, 0.000000000000000000 ) ) ;
#189 = ADVANCED_FACE ( 'NONE', ( #281, #377 ), #91, .T. ) ;
#190 = FACE_OUTER_BOUND ( 'NONE', #257, .T. ) ;
#191 = DIRECTION ( 'NONE',  ( -0.000000000000000000, -1.000000000000000000, -0.000000000000000000 ) ) ;
#192 = EDGE_LOOP ( 'NONE', ( #83 ) ) ;
#193 = CARTESIAN_POINT ( 'NONE',  ( 0.000000000000000000, -45.00000000000000000, 0.000000000000000000 ) ) ;
#194 = EDGE_LOOP ( 'NONE', ( #236 ) ) ;
#195 = AXIS2_PLACEMENT_3D ( 'NONE', #77, #301, #302 ) ;
#196 = VERTEX_POINT ( 'NONE', #98 ) ;
#197 = DIRECTION ( 'NONE',  ( 0.000000000000000000, 1.000000000000000000, 0.000000000000000000 ) ) ;
#198 = ORIENTED_EDGE ( 'NONE', *, *, #319, .F. ) ;
#199 = CIRCLE ( 'NONE', #348, 72.00000000000000000 ) ;
#200 = PERSON_AND_ORGANIZATION_ROLE ( 'design_owner' ) ;
#201 = ORIENTED_EDGE ( 'NONE', *, *, #346, .F. ) ;
#202 = DESIGN_CONTEXT ( 'detailed design', #227, 'design' ) ;
#203 = CARTESIAN_POINT ( 'NONE',  ( 0.000000000000000000, 29.00000000000000000, 0.000000000000000000 ) ) ;
#204 = EDGE_LOOP ( 'NONE', ( #369 ) ) ;
#205 = CIRCLE ( 'NONE', #74, 77.00000000000000000 ) ;
#206 = DIRECTION ( 'NONE',  ( -0.000000000000000000, -1.000000000000000000, -0.000000000000000000 ) ) ;
#207 = SECURITY_CLASSIFICATION_LEVEL ( 'unclassified' ) ;
#208 = CARTESIAN_POINT ( 'NONE',  ( 0.000000000000000000, 1.999999999999999556, 0.000000000000000000 ) ) ;
#209 = DIRECTION ( 'NONE',  ( -0.000000000000000000, -1.000000000000000000, -0.000000000000000000 ) ) ;
#210 = AXIS2_PLACEMENT_3D ( 'NONE', #151, #25, #398 ) ;
#211 = LOCAL_TIME ( 10, 25, 52.00000000000000000, #19 ) ;
#212 = DIRECTION ( 'NONE',  ( 0.000000000000000000, 0.000000000000000000, -1.000000000000000000 ) ) ;
#213 = ADVANCED_FACE ( 'NONE', ( #56, #123 ), #246, .T. ) ;
#214 = FACE_OUTER_BOUND ( 'NONE', #204, .T. ) ;
#215 = DIRECTION ( 'NONE',  ( -0.000000000000000000, -1.000000000000000000, -0.000000000000000000 ) ) ;
#216 = CARTESIAN_POINT ( 'NONE',  ( 72.00000000000000000, 1.999999999999999556, 0.000000000000000000 ) ) ;
#217 = SHAPE_DEFINITION_REPRESENTATION ( #249, #119 ) ;
#218 = CARTESIAN_POINT ( 'NONE',  ( -9.428603900093932015E-14, 26.99999999999972644, 0.000000000000000000 ) ) ;
#219 = EDGE_LOOP ( 'NONE', ( #198 ) ) ;
#220 = DIRECTION ( 'NONE',  ( 0.000000000000000000, 1.000000000000000000, 0.000000000000000000 ) ) ;
#221 = ORIENTED_EDGE ( 'NONE', *, *, #346, .T. ) ;
#222 = VERTEX_POINT ( 'NONE', #255 ) ;
#223 = PRODUCT_DEFINITION ( 'UNKNOWN', '', #280, #202 ) ;
#224 = AXIS2_PLACEMENT_3D ( 'NONE', #33, #220, #37 ) ;
#225 = CARTESIAN_POINT ( 'NONE',  ( 0.000000000000000000, 29.00000000000000000, -10.00000000000000000 ) ) ;
#226 = EDGE_LOOP ( 'NONE', ( #295 ) ) ;
#227 = APPLICATION_CONTEXT ( 'configuration controlled 3d designs of mechanical parts and assemblies' ) ;
#228 = CARTESIAN_POINT ( 'NONE',  ( 0.000000000000000000, 1.999999999999999112, -72.00000000000000000 ) ) ;
#229 = EDGE_LOOP ( 'NONE', ( #289 ) ) ;
#230 = CC_DESIGN_PERSON_AND_ORGANIZATION_ASSIGNMENT ( #231, #40, ( #223 ) ) ;
#231 = PERSON_AND_ORGANIZATION ( #108, #75 ) ;
#232 = FACE_OUTER_BOUND ( 'NONE', #38, .T. ) ;
#233 = AXIS2_PLACEMENT_3D ( 'NONE', #125, #209, #375 ) ;
#234 = DIRECTION ( 'NONE',  ( 1.000000000000000000, 3.493646311741652781E-15, 0.000000000000000000 ) ) ;
#235 = ORIENTED_EDGE ( 'NONE', *, *, #4, .T. ) ;
#236 = ORIENTED_EDGE ( 'NONE', *, *, #176, .T. ) ;
#237 = AXIS2_PLACEMENT_3D ( 'NONE', #365, #206, #140 ) ;
#238 = APPROVAL_ROLE ( '' ) ;
#239 = CC_DESIGN_SECURITY_CLASSIFICATION ( #80, ( #280 ) ) ;
#240 = ORIENTED_EDGE ( 'NONE', *, *, #111, .T. ) ;
#241 = CALENDAR_DATE ( 2025, 14, 8 ) ;
#242 = DIRECTION ( 'NONE',  ( 0.000000000000000000, -0.000000000000000000, 1.000000000000000000 ) ) ;
#243 = PERSON_AND_ORGANIZATION ( #108, #75 ) ;
#244 = CC_DESIGN_PERSON_AND_ORGANIZATION_ASSIGNMENT ( #277, #303, ( #280 ) ) ;
#245 = DIRECTION ( 'NONE',  ( 0.000000000000000000, 0.000000000000000000, -1.000000000000000000 ) ) ;
#246 = PLANE ( 'NONE',  #272 ) ;
#247 = CYLINDRICAL_SURFACE ( 'NONE', #410, 72.00000000000000000 ) ;
#248 = ADVANCED_FACE ( 'NONE', ( #50, #340 ), #247, .F. ) ;
#249 = PRODUCT_DEFINITION_SHAPE ( 'NONE', 'NONE',  #223 ) ;
#250 = CYLINDRICAL_SURFACE ( 'NONE', #334, 72.00000000000000000 ) ;
#251 = APPROVAL_ROLE ( '' ) ;
#252 = CIRCLE ( 'NONE', #279, 77.00000000000000000 ) ;
#253 = CYLINDRICAL_SURFACE ( 'NONE', #107, 77.00000000000000000 ) ;
#254 = COORDINATED_UNIVERSAL_TIME_OFFSET ( 2, 0, .AHEAD. ) ;
#255 = CARTESIAN_POINT ( 'NONE',  ( 79.56999999999999318, 1.999999999999994893, 0.000000000000000000 ) ) ;
#256 = DIRECTION ( 'NONE',  ( 0.000000000000000000, 0.000000000000000000, -1.000000000000000000 ) ) ;
#257 = EDGE_LOOP ( 'NONE', ( #94 ) ) ;
#258 = CARTESIAN_POINT ( 'NONE',  ( 0.000000000000000000, -45.00000000000000000, 0.000000000000000000 ) ) ;
#259 = CIRCLE ( 'NONE', #52, 79.57000000000007844 ) ;
#260 = FACE_OUTER_BOUND ( 'NONE', #73, .T. ) ;
#261 = APPROVAL ( #401, 'UNSPECIFIED' ) ;
#262 = CALENDAR_DATE ( 2025, 14, 8 ) ;
#263 = FACE_BOUND ( 'NONE', #32, .T. ) ;
#264 = ORIENTED_EDGE ( 'NONE', *, *, #22, .T. ) ;
#265 = CIRCLE ( 'NONE', #124, 77.00000000000000000 ) ;
#266 = LOCAL_TIME ( 10, 25, 52.00000000000000000, #168 ) ;
#267 = ORIENTED_EDGE ( 'NONE', *, *, #172, .T. ) ;
#268 = ADVANCED_FACE ( 'NONE', ( #180, #214 ), #304, .T. ) ;
#269 = PRODUCT ( '250814 STEP 3-400775-00_5486A', '250814 STEP 3-400775-00_5486A', '', ( #339 ) ) ;
#270 = FACE_OUTER_BOUND ( 'NONE', #104, .T. ) ;
#271 = CARTESIAN_POINT ( 'NONE',  ( -6.984151037105697255E-15, 1.999999999999716893, 0.000000000000000000 ) ) ;
#272 = AXIS2_PLACEMENT_3D ( 'NONE', #216, #88, #245 ) ;
#273 = VERTEX_POINT ( 'NONE', #105 ) ;
#274 = DIRECTION ( 'NONE',  ( 0.000000000000000000, 1.000000000000000000, 0.000000000000000000 ) ) ;
#275 = APPROVAL_ROLE ( '' ) ;
#276 = DIRECTION ( 'NONE',  ( 0.000000000000000000, 0.000000000000000000, -1.000000000000000000 ) ) ;
#277 = PERSON_AND_ORGANIZATION ( #108, #75 ) ;
#278 = FACE_OUTER_BOUND ( 'NONE', #136, .T. ) ;
#279 = AXIS2_PLACEMENT_3D ( 'NONE', #364, #138, #144 ) ;
#280 = PRODUCT_DEFINITION_FORMATION_WITH_SPECIFIED_SOURCE ( 'ANY', '', #269, .NOT_KNOWN. ) ;
#281 = FACE_OUTER_BOUND ( 'NONE', #165, .T. ) ;
#282 = DIRECTION ( 'NONE',  ( -0.000000000000000000, -1.000000000000000000, -0.000000000000000000 ) ) ;
#283 = CARTESIAN_POINT ( 'NONE',  ( 0.000000000000000000, 29.00000000000000000, -3.500000000000000888 ) ) ;
#284 = DIRECTION ( 'NONE',  ( 0.000000000000000000, -1.000000000000000000, -0.000000000000000000 ) ) ;
#285 = EDGE_LOOP ( 'NONE', ( #322 ) ) ;
#286 = APPROVAL ( #117, 'UNSPECIFIED' ) ;
#287 = DIRECTION ( 'NONE',  ( 0.000000000000000000, 1.000000000000000000, 0.000000000000000000 ) ) ;
#288 = VERTEX_POINT ( 'NONE', #82 ) ;
#289 = ORIENTED_EDGE ( 'NONE', *, *, #65, .F. ) ;
#290 = FACE_BOUND ( 'NONE', #393, .T. ) ;
#291 = PRODUCT_RELATED_PRODUCT_CATEGORY ( 'detail', '', ( #269 ) ) ;
#292 = CLOSED_SHELL ( 'NONE', ( #268, #129, #325, #213, #248, #141, #355, #350, #41, #402, #376, #185 ) ) ;
#293 = EDGE_LOOP ( 'NONE', ( #264 ) ) ;
#294 = DATE_AND_TIME ( #241, #266 ) ;
#295 = ORIENTED_EDGE ( 'NONE', *, *, #111, .F. ) ;
#296 = APPLICATION_PROTOCOL_DEFINITION ( 'international standard', 'config_control_design', 1994, #227 ) ;
#297 = DIRECTION ( 'NONE',  ( 3.492075518553343243E-15, -1.000000000000000000, -0.000000000000000000 ) ) ;
#298 = EDGE_LOOP ( 'NONE', ( #173 ) ) ;
#299 = AXIS2_PLACEMENT_3D ( 'NONE', #133, #321, #29 ) ;
#300 = EDGE_CURVE ( 'NONE', #61, #61, #328, .T. ) ;
#301 = DIRECTION ( 'NONE',  ( -0.000000000000000000, -1.000000000000000000, -0.000000000000000000 ) ) ;
#302 = DIRECTION ( 'NONE',  ( 0.000000000000000000, 0.000000000000000000, -1.000000000000000000 ) ) ;
#303 = PERSON_AND_ORGANIZATION_ROLE ( 'design_supplier' ) ;
#304 = PLANE ( 'NONE',  #92 ) ;
#305 = CC_DESIGN_PERSON_AND_ORGANIZATION_ASSIGNMENT ( #368, #122, ( #80 ) ) ;
#306 = CIRCLE ( 'NONE', #313, 79.57000000000000739 ) ;
#307 = COORDINATED_UNIVERSAL_TIME_OFFSET ( 2, 0, .AHEAD. ) ;
#308 = FACE_BOUND ( 'NONE', #293, .T. ) ;
#309 = PERSON_AND_ORGANIZATION_ROLE ( 'creator' ) ;
#310 = CARTESIAN_POINT ( 'NONE',  ( 77.00000000000000000, 27.00000000000000355, 0.000000000000000000 ) ) ;
#311 = EDGE_CURVE ( 'NONE', #96, #96, #66, .T. ) ;
#312 = DIRECTION ( 'NONE',  ( 0.000000000000000000, -1.000000000000000000, -0.000000000000000000 ) ) ;
#313 = AXIS2_PLACEMENT_3D ( 'NONE', #271, #297, #234 ) ;
#314 = DIRECTION ( 'NONE',  ( 0.000000000000000000, 0.000000000000000000, -1.000000000000000000 ) ) ;
#315 = APPROVAL_DATE_TIME ( #378, #152 ) ;
#316 = PLANE ( 'NONE',  #224 ) ;
#317 = CARTESIAN_POINT ( 'NONE',  ( 0.000000000000000000, 27.00000000000000355, 77.00000000000000000 ) ) ;
#318 = EDGE_LOOP ( 'NONE', ( #64 ) ) ;
#319 = EDGE_CURVE ( 'NONE', #288, #288, #174, .T. ) ;
#320 = AXIS2_PLACEMENT_3D ( 'NONE', #9, #335, #17 ) ;
#321 = DIRECTION ( 'NONE',  ( -0.000000000000000000, -1.000000000000000000, -0.000000000000000000 ) ) ;
#322 = ORIENTED_EDGE ( 'NONE', *, *, #89, .T. ) ;
#323 = CARTESIAN_POINT ( 'NONE',  ( 0.000000000000000000, 17.00000000000000000, 72.00000000000000000 ) ) ;
#324 = ORIENTED_EDGE ( 'NONE', *, *, #34, .F. ) ;
#325 = ADVANCED_FACE ( 'NONE', ( #182, #308 ), #21, .T. ) ;
#326 = VERTEX_POINT ( 'NONE', #317 ) ;
#327 = ORIENTED_EDGE ( 'NONE', *, *, #319, .T. ) ;
#328 = CIRCLE ( 'NONE', #210, 10.00000000000000178 ) ;
#329 = ORIENTED_EDGE ( 'NONE', *, *, #172, .F. ) ;
#330 = APPROVAL_DATE_TIME ( #294, #286 ) ;
#331 = CARTESIAN_POINT ( 'NONE',  ( 72.00000000000000000, 1.999999999999999556, 0.000000000000000000 ) ) ;
#332 = CARTESIAN_POINT ( 'NONE',  ( 0.000000000000000000, 0.000000000000000000, 0.000000000000000000 ) ) ;
#333 = DIRECTION ( 'NONE',  ( -0.000000000000000000, -1.000000000000000000, -0.000000000000000000 ) ) ;
#334 = AXIS2_PLACEMENT_3D ( 'NONE', #153, #186, #314 ) ;
#335 = DIRECTION ( 'NONE',  ( -0.000000000000000000, -1.000000000000000000, -0.000000000000000000 ) ) ;
#336 =( LENGTH_UNIT ( ) NAMED_UNIT ( * ) SI_UNIT ( .MILLI., .METRE. ) );
#337 = EDGE_CURVE ( 'NONE', #114, #114, #87, .T. ) ;
#338 = DIRECTION ( 'NONE',  ( 0.000000000000000000, 1.000000000000000000, 0.000000000000000000 ) ) ;
#339 = MECHANICAL_CONTEXT ( 'NONE', #371, 'mechanical' ) ;
#340 = FACE_OUTER_BOUND ( 'NONE', #285, .T. ) ;
#341 = AXIS2_PLACEMENT_3D ( 'NONE', #356, #284, #157 ) ;
#342 = APPROVAL_DATE_TIME ( #43, #261 ) ;
#343 = APPROVAL_PERSON_ORGANIZATION ( #30, #152, #251 ) ;
#344 = CARTESIAN_POINT ( 'NONE',  ( 72.00000000000000000, 17.00000000000000000, 0.000000000000000000 ) ) ;
#345 = DIRECTION ( 'NONE',  ( 0.000000000000000000, 0.000000000000000000, 1.000000000000000000 ) ) ;
#346 = EDGE_CURVE ( 'NONE', #273, #273, #259, .T. ) ;
#347 = DIRECTION ( 'NONE',  ( 0.000000000000000000, 0.000000000000000000, 1.000000000000000000 ) ) ;
#348 = AXIS2_PLACEMENT_3D ( 'NONE', #145, #78, #175 ) ;
#349 = CARTESIAN_POINT ( 'NONE',  ( 0.000000000000000000, 0.000000000000000000, 0.000000000000000000 ) ) ;
#350 = ADVANCED_FACE ( 'NONE', ( #290, #190 ), #316, .T. ) ;
#351 = FACE_OUTER_BOUND ( 'NONE', #192, .T. ) ;
#352 = PLANE ( 'NONE',  #341 ) ;
#353 = EDGE_LOOP ( 'NONE', ( #221 ) ) ;
#354 = CARTESIAN_POINT ( 'NONE',  ( 0.000000000000000000, 27.00000000000000355, 77.00000000000000000 ) ) ;
#355 = ADVANCED_FACE ( 'NONE', ( #103, #69 ), #253, .T. ) ;
#356 = CARTESIAN_POINT ( 'NONE',  ( 3.500000000000000888, -3.190601369074880301E-16, 0.000000000000000000 ) ) ;
#357 = CALENDAR_DATE ( 2025, 14, 8 ) ;
#358 = DIRECTION ( 'NONE',  ( 1.000000000000000000, 0.000000000000000000, 0.000000000000000000 ) ) ;
#359 = CIRCLE ( 'NONE', #195, 10.00000000000000178 ) ;
#360 = FACE_OUTER_BOUND ( 'NONE', #353, .T. ) ;
#361 = CC_DESIGN_APPROVAL ( #152, ( #80 ) ) ;
#362 = CC_DESIGN_PERSON_AND_ORGANIZATION_ASSIGNMENT ( #85, #200, ( #269 ) ) ;
#363 = DIRECTION ( 'NONE',  ( 3.492075518553343243E-15, -1.000000000000000000, -0.000000000000000000 ) ) ;
#364 = CARTESIAN_POINT ( 'NONE',  ( 0.000000000000000000, 27.00000000000000355, 0.000000000000000000 ) ) ;
#365 = CARTESIAN_POINT ( 'NONE',  ( 0.000000000000000000, 27.00000000000000355, 0.000000000000000000 ) ) ;
#366 = AXIS2_PLACEMENT_3D ( 'NONE', #28, #215, #347 ) ;
#367 = CC_DESIGN_PERSON_AND_ORGANIZATION_ASSIGNMENT ( #243, #309, ( #280 ) ) ;
#368 = PERSON_AND_ORGANIZATION ( #108, #75 ) ;
#369 = ORIENTED_EDGE ( 'NONE', *, *, #311, .F. ) ;
#370 = CARTESIAN_POINT ( 'NONE',  ( 0.000000000000000000, 12.00000000000000000, -72.00000000000000000 ) ) ;
#371 = APPLICATION_CONTEXT ( 'configuration controlled 3d designs of mechanical parts and assemblies' ) ;
#372 = CARTESIAN_POINT ( 'NONE',  ( 0.000000000000000000, 0.000000000000000000, 0.000000000000000000 ) ) ;
#373 = CARTESIAN_POINT ( 'NONE',  ( 0.000000000000000000, 0.000000000000000000, 0.000000000000000000 ) ) ;
#374 = CARTESIAN_POINT ( 'NONE',  ( 77.00000000000000000, 27.00000000000000355, 0.000000000000000000 ) ) ;
#375 = DIRECTION ( 'NONE',  ( 0.000000000000000000, 0.000000000000000000, -1.000000000000000000 ) ) ;
#376 = ADVANCED_FACE ( 'NONE', ( #2, #160 ), #352, .T. ) ;
#377 = FACE_BOUND ( 'NONE', #3, .T. ) ;
#378 = DATE_AND_TIME ( #55, #159 ) ;
#379 = DIRECTION ( 'NONE',  ( -0.000000000000000000, -1.000000000000000000, -0.000000000000000000 ) ) ;
#380 = AXIS2_PLACEMENT_3D ( 'NONE', #162, #191, #256 ) ;
#381 = DIRECTION ( 'NONE',  ( 3.492075518553343243E-15, -1.000000000000000000, -0.000000000000000000 ) ) ;
#382 = CARTESIAN_POINT ( 'NONE',  ( 0.000000000000000000, -5.121023337185271396E-17, -10.00000000000000178 ) ) ;
#383 = CARTESIAN_POINT ( 'NONE',  ( 0.000000000000000000, 1.999999999999999556, 0.000000000000000000 ) ) ;
#384 = ADVANCED_FACE ( 'NONE', ( #127, #351 ), #63, .F. ) ;
#385 = ORIENTED_EDGE ( 'NONE', *, *, #4, .F. ) ;
#386 = AXIS2_PLACEMENT_3D ( 'NONE', #374, #86, #184 ) ;
#387 = CIRCLE ( 'NONE', #166, 77.00000000000000000 ) ;
#388 = VERTEX_POINT ( 'NONE', #130 ) ;
#389 = VERTEX_POINT ( 'NONE', #283 ) ;
#390 = DATE_AND_TIME ( #357, #211 ) ;
#391 = DIRECTION ( 'NONE',  ( 0.000000000000000000, -1.000000000000000000, -0.000000000000000000 ) ) ;
#392 = FACE_OUTER_BOUND ( 'NONE', #161, .T. ) ;
#393 = EDGE_LOOP ( 'NONE', ( #240 ) ) ;
#394 = FACE_OUTER_BOUND ( 'NONE', #194, .T. ) ;
#395 = EDGE_LOOP ( 'NONE', ( #235 ) ) ;
#396 = AXIS2_PLACEMENT_3D ( 'NONE', #203, #45, #276 ) ;
#397 = APPROVAL_PERSON_ORGANIZATION ( #12, #286, #275 ) ;
#398 = DIRECTION ( 'NONE',  ( 0.000000000000000000, 0.000000000000000000, -1.000000000000000000 ) ) ;
#399 = DIRECTION ( 'NONE',  ( 0.000000000000000000, 0.000000000000000000, 1.000000000000000000 ) ) ;
#400 = FACE_OUTER_BOUND ( 'NONE', #13, .T. ) ;
#401 = APPROVAL_STATUS ( 'not_yet_approved' ) ;
#402 = ADVANCED_FACE ( 'NONE', ( #260, #35 ), #5, .F. ) ;
#403 = CARTESIAN_POINT ( 'NONE',  ( 13.00000000000000178, 12.00000000000000000, 0.000000000000000000 ) ) ;
#404 = CIRCLE ( 'NONE', #233, 10.00000000000000000 ) ;
#405 = LOCAL_TIME ( 10, 25, 52.00000000000000000, #307 ) ;
#406 = DIRECTION ( 'NONE',  ( 0.000000000000000000, 0.000000000000000000, -1.000000000000000000 ) ) ;
#407 = FACE_OUTER_BOUND ( 'NONE', #42, .T. ) ;
#408 = EDGE_CURVE ( 'NONE', #170, #170, #265, .T. ) ;
#409 = VERTEX_POINT ( 'NONE', #225 ) ;
#410 = AXIS2_PLACEMENT_3D ( 'NONE', #349, #90, #406 ) ;
#411 = VERTEX_POINT ( 'NONE', #164 ) ;
ENDSEC;
END-ISO-10303-21;
